Cifradas na Web

Ana Carolina

Encostar na Tua

Veja o vídeo de "Encostar na Tua" de "Ana Carolina" no
Intro.:

			  E9 2x          C#m7 2x     A  15  

e - ||-2----2-------0-|---------------0-|-------5-----4--2-|
B - ||----------0-----|-0-----0---------|-2----------------|
G - ||---1----1---1---|-----------4-----|---------2--------|
D - ||-2--------------|---2-----2---2---|---2--------------|
A - ||----------------|-4---4-----------|-0---0-----0------|
E - ||----0-----------|-----------------|------------------|

      14 12       E/G#    Am6/9 2x
                       
E - |-0-----0-------0-|---------------0-||
B - |-----------------|-0-----0---------||
G - |-----------4-----|-----------5-----||
D - |---2-----2---2---|---4-----4---4---||
A - |-----------------|-0---0-----------||
E - |-4---4-----------|-----------------||


   E9                                       C#m7
Eu quero te roubar pra mim eu que não sei pedir  nada
            A      15   14 12 E/G#            Am6/9
Meu caminho é meio perdido         mas que perder
              E9                         C#m7
Seja o melhor destino agora não vou mais mudar minha procura
    A     15  14 12 E/G#                    Am6/9
Por si só                já era o que eu queria    achar
                   E9                         C#m7
Quando você chamar meu nome eu que também não sei aonde estou
            A9                     Am6/9
pra mim que tudo era saudade agora seja  lá o que for


      E9*                 C#m7                F#m7/9         A/B
Eu só quero saber em qual rua  minha vida vai encostar na tua
      E9*                 C#m7                F#m7/9         A/B
Eu só quero saber em qual rua  minha vida vai encostar na tua


   E9
Eu quero te roubar pra mim...
      E9*                 C#m7
Eu só quero saber em qual rua...


F#            Am              F#                       B
Que saiba que forte eu sei chegar mesmo se eu perder o rumo
F#            Am              F#                      A/B
Que saiba que forte eu sei chegar e se for preciso eu sumo

      E9
Eu só quero...


Contribuição: Carlexson Sena

E9 e E9 C#m7 A A-15 A-14 E/G# Am6/9 A9 E9* F#m7/9 A/B F# Am B


> Mais letras de músicas cifradas de Ana Carolina
> Veja aqui letras das músicas de Ana Carolina
Publicidade